Cómo leer tablaturas de punteo

Guitarra Vallenata (guitarravallenata.com) transcribe las obras musicales en formato de tablaturas. He aquí un ejemplo de una tablatura vacía:

 

 

\
E|----------------------
B|----------------------
G|----------------------
D|----------------------
A|----------------------
E|----------------------
/

Graf. 1

\
1|----------------------
2|----------------------
3|----------------------
4|----------------------
5|----------------------
6|----------------------
/

Graf. 2

 

 

Las cuerdas se posicionan como si sujetaras el diapasón de la guitarra con la mano izquierda. Nota como irían las cuerdas en el gráfico núm. 2:

 

Sin embargo, preferimos colocar los nombres de las notas de las cuerdas al aire para diferenciar una cuerda de la otra. En otros sitios de internet, tal vez los transcriptores opten por no colocar ni la numeración ni la nomenclatura de las cuerdas, ya que se sobre-entiende de qué cuerdas se está hablando. A continuación veamos cómo leer la tablatura:

\
E|---------|---------------------|----------
B|---------|---------------------|----------
G|---------|--6---6----6---4-----|--4-------
D|------7--|------------------7--|-----7----
A|--7------|---------------------|----------
E|---------|---------------------|----------
/

Los números corresponden a los espacios del diapasón de la guitarra y en la cuerda que se deben tocar. En la lámina de arriba vemos que el primer número siete (7) significa que se toca el séptimo espacio del diapasón de la quinta cuerda de la guitarra. Las barras que dividen la tablatura no corresponden a los espacios ni a los trastes de la guitarra. Estas corresponden al compás de la canción. Estas te ayudan a entender cual nota lleva el acento. En este caso la nota que se toca en el sexto espacio, tercera cuerda después de la barra, corresponde a la nota acentuada la cual inicia el siguiente compás. Lo mismo se dice del número cuatro en la tercera cuerda después de la barra.

Algunos transcriptores le agregan simbología a la tablatura para ayudarte a darle el “sabor” a la pieza musical. Guitarra Vallenata va a emplear su propia simbología así que pedimos que la estudies bien. Encontrarás que la simbología usada por nosotros va a tener similitudes a las que se utilizan popularmente.

\
E|---------|---------------------|-----------8c-
B|---------|---------------------|--------------
G|---------|--7L6---6c----6/12---|--12\6--7-----
D|------7v-|---------------------|--------7-----
A|--7L8----|---------------------|--------------
E|---------|---------------------|--------------
/ 

 

  
Simbología Definición
c Curvar la cuerda, sea hacia arriba o hacia abajo.
L Ligar el sonido de una nota en un espacio de la misma cuerda con otro espacio de la misma cuerda, sea de forma ascendente o descendente.
tr Tresillo. Con la mano derecha tocar la misma cuerda tres veces para prolongar su sonido como si se tocara la cuerda una sola vez. Estilo música flamenco.
ss Seisillo. Prolongar el tresillo a otro tresillo más.
v Vibrar la misma nota con el dedo que pisa la cuerda en el espacio del diapasón.
/ Deslizar de forma ascendente el dedo desde la misma cuerda en el mismo espacio hacia el espacio deseado.
\ Deslizar de forma descendente el dedo de la mano izquierda, desde la misma cuerda en el mismo espacio hacia el espacio deseado
 

 

¿Qué te pareció este artículo?

Envía tu opinión